  0
SECTION
  2
HEADER
  9
$ACADVER
  1
AC1015
  9
$ACADMAINTVER
 70
     6
  9
$DWGCODEPAGE
  3
ANSI_1254
  9
$INSBASE
 10
0.0
 20
0.0
 30
0.0
  9
$EXTMIN
 10
0.0
 20
0.0
 30
0.0
  9
$EXTMAX
 10
279.4
 20
215.9
 30
0.0
  9
$LIMMIN
 10
0.0
 20
0.0
  9
$LIMMAX
 10
279.4
 20
215.9
  9
$ORTHOMODE
 70
     0
  9
$REGENMODE
 70
     1
  9
$FILLMODE
 70
     1
  9
$QTEXTMODE
 70
     0
  9
$MIRRTEXT
 70
     1
  9
$LTSCALE
 40
1.0
  9
$ATTMODE
 70
     1
  9
$TEXTSIZE
 40
3.5
  9
$TRACEWID
 40
1.0
  9
$TEXTSTYLE
  7
Standard
  9
$CLAYER
  8
0
  9
$CELTYPE
  6
ByLayer
  9
$CECOLOR
 62
   256
  9
$CELTSCALE
 40
1.0
  9
$DISPSILH
 70
     0
  9
$DIMSCALE
 40
1.0
  9
$DIMASZ
 40
3.5
  9
$DIMEXO
 40
1.0
  9
$DIMDLI
 40
3.75
  9
$DIMRND
 40
0.0
  9
$DIMDLE
 40
0.0
  9
$DIMEXE
 40
1.0
  9
$DIMTP
 40
0.0
  9
$DIMTM
 40
0.0
  9
$DIMTXT
 40
3.5
  9
$DIMCEN
 40
2.5
  9
$DIMTSZ
 40
0.0
  9
$DIMTOL
 70
     0
  9
$DIMLIM
 70
     0
  9
$DIMTIH
 70
     1
  9
$DIMTOH
 70
     1
  9
$DIMSE1
 70
     0
  9
$DIMSE2
 70
     0
  9
$DIMTAD
 70
     1
  9
$DIMZIN
 70
     0
  9
$DIMBLK
  1

  9
$DIMASO
 70
     1
  9
$DIMSHO
 70
     1
  9
$DIMPOST
  1

  9
$DIMAPOST
  1

  9
$DIMALT
 70
     0
  9
$DIMALTD
 70
     3
  9
$DIMALTF
 40
0.0393700787
  9
$DIMLFAC
 40
1.0
  9
$DIMTOFL
 70
     1
  9
$DIMTVP
 40
0.0
  9
$DIMTIX
 70
     0
  9
$DIMSOXD
 70
     0
  9
$DIMSAH
 70
     0
  9
$DIMBLK1
  1

  9
$DIMBLK2
  1

  9
$DIMSTYLE
  2
ISO-25
  9
$DIMCLRD
 70
     0
  9
$DIMCLRE
 70
     0
  9
$DIMCLRT
 70
     0
  9
$DIMTFAC
 40
1.0
  9
$DIMGAP
 40
1.524
  9
$DIMJUST
 70
     0
  9
$DIMSD1
 70
     0
  9
$DIMSD2
 70
     0
  9
$DIMTOLJ
 70
     0
  9
$DIMTZIN
 70
     0
  9
$DIMALTZ
 70
     0
  9
$DIMALTTZ
 70
     0
  9
$DIMUPT
 70
     0
  9
$DIMDEC
 70
     2
  9
$DIMTDEC
 70
     2
  9
$DIMALTU
 70
     2
  9
$DIMALTTD
 70
     3
  9
$DIMTXSTY
  7
Standard
  9
$DIMAUNIT
 70
     0
  9
$DIMADEC
 70
     2
  9
$DIMALTRND
 40
0.0
  9
$DIMAZIN
 70
     0
  9
$DIMDSEP
 70
    44
  9
$DIMATFIT
 70
     3
  9
$DIMFRAC
 70
     0
  9
$DIMLDRBLK
  1

  9
$DIMLUNIT
 70
     2
  9
$DIMLWD
 70
    -2
  9
$DIMLWE
 70
    -2
  9
$DIMTMOVE
 70
     0
  9
$LUNITS
 70
     2
  9
$LUPREC
 70
     2
  9
$SKETCHINC
 40
1.0
  9
$FILLETRAD
 40
10.0
  9
$AUNITS
 70
     0
  9
$AUPREC
 70
     2
  9
$MENU
  1
.
  9
$ELEVATION
 40
0.0
  9
$PELEVATION
 40
0.0
  9
$THICKNESS
 40
0.0
  9
$LIMCHECK
 70
     0
  9
$CHAMFERA
 40
0.0
  9
$CHAMFERB
 40
0.0
  9
$CHAMFERC
 40
0.0
  9
$CHAMFERD
 40
0.0
  9
$SKPOLY
 70
     0
  9
$TDCREATE
 40
2458985.663624028
  9
$TDUCREATE
 40
2458985.538624028
  9
$TDUPDATE
 40
2458985.663624282
  9
$TDUUPDATE
 40
2458985.538624282
  9
$TDINDWG
 40
0.0000000116
  9
$TDUSRTIMER
 40
0.0000000116
  9
$USRTIMER
 70
     1
  9
$ANGBASE
 50
0.0
  9
$ANGDIR
 70
     0
  9
$PDMODE
 70
     0
  9
$PDSIZE
 40
-1.0
  9
$PLINEWID
 40
0.0
  9
$SPLFRAME
 70
     0
  9
$SPLINETYPE
 70
     6
  9
$SPLINESEGS
 70
     8
  9
$HANDSEED
  5
C0
  9
$SURFTAB1
 70
     6
  9
$SURFTAB2
 70
     6
  9
$SURFTYPE
 70
     6
  9
$SURFU
 70
     6
  9
$SURFV
 70
     6
  9
$UCSBASE
  2

  9
$UCSNAME
  2

  9
$UCSORG
 10
0.0
 20
0.0
 30
0.0
  9
$UCSXDIR
 10
1.0
 20
0.0
 30
0.0
  9
$UCSYDIR
 10
0.0
 20
1.0
 30
0.0
  9
$UCSORTHOREF
  2

  9
$UCSORTHOVIEW
 70
     0
  9
$UCSORGTOP
 10
0.0
 20
0.0
 30
0.0
  9
$UCSORGBOTTOM
 10
0.0
 20
0.0
 30
0.0
  9
$UCSORGLEFT
 10
0.0
 20
0.0
 30
0.0
  9
$UCSORGRIGHT
 10
0.0
 20
0.0
 30
0.0
  9
$UCSORGFRONT
 10
0.0
 20
0.0
 30
0.0
  9
$UCSORGBACK
 10
0.0
 20
0.0
 30
0.0
  9
$PUCSBASE
  2

  9
$PUCSNAME
  2

  9
$PUCSORG
 10
0.0
 20
0.0
 30
0.0
  9
$PUCSXDIR
 10
1.0
 20
0.0
 30
0.0
  9
$PUCSYDIR
 10
0.0
 20
1.0
 30
0.0
  9
$PUCSORTHOREF
  2

  9
$PUCSORTHOVIEW
 70
     0
  9
$PUCSORGTOP
 10
0.0
 20
0.0
 30
0.0
  9
$PUCSORGBOTTOM
 10
0.0
 20
0.0
 30
0.0
  9
$PUCSORGLEFT
 10
0.0
 20
0.0
 30
0.0
  9
$PUCSORGRIGHT
 10
0.0
 20
0.0
 30
0.0
  9
$PUCSORGFRONT
 10
0.0
 20
0.0
 30
0.0
  9
$PUCSORGBACK
 10
0.0
 20
0.0
 30
0.0
  9
$USERI1
 70
     0
  9
$USERI2
 70
     0
  9
$USERI3
 70
     0
  9
$USERI4
 70
     0
  9
$USERI5
 70
     0
  9
$USERR1
 40
0.0
  9
$USERR2
 40
0.0
  9
$USERR3
 40
0.0
  9
$USERR4
 40
0.0
  9
$USERR5
 40
0.0
  9
$WORLDVIEW
 70
     1
  9
$SHADEDGE
 70
     3
  9
$SHADEDIF
 70
    70
  9
$TILEMODE
 70
     1
  9
$MAXACTVP
 70
    64
  9
$PINSBASE
 10
0.0
 20
0.0
 30
0.0
  9
$PLIMCHECK
 70
     0
  9
$PEXTMIN
 10
1.0000000000E+20
 20
1.0000000000E+20
 30
1.0000000000E+20
  9
$PEXTMAX
 10
-1.0000000000E+20
 20
-1.0000000000E+20
 30
-1.0000000000E+20
  9
$PLIMMIN
 10
0.0
 20
0.0
  9
$PLIMMAX
 10
420.0
 20
297.0
  9
$UNITMODE
 70
     0
  9
$VISRETAIN
 70
     1
  9
$PLINEGEN
 70
     0
  9
$PSLTSCALE
 70
     1
  9
$TREEDEPTH
 70
  3020
  9
$CMLSTYLE
  2
Standard
  9
$CMLJUST
 70
     0
  9
$CMLSCALE
 40
20.0
  9
$PROXYGRAPHICS
 70
     1
  9
$MEASUREMENT
 70
     1
  9
$CELWEIGHT
370
    -1
  9
$ENDCAPS
280
     0
  9
$JOINSTYLE
280
     0
  9
$LWDISPLAY
290
     1
  9
$INSUNITS
 70
     4
  9
$HYPERLINKBASE
  1

  9
$STYLESHEET
  1

  9
$XEDIT
290
     1
  9
$CEPSNTYPE
380
     0
  9
$PSTYLEMODE
290
     1
  9
$FINGERPRINTGUID
  2
{439f0193-b6d5-468a-875c-608bf35eef89}
  9
$VERSIONGUID
  2
{FAEB1C32-E019-11D5-929B-00C0DF256EC4}
  9
$EXTNAMES
290
     1
  9
$PSVPSCALE
 40
0.0
  9
$OLESTARTUP
290
     0
  0
ENDSEC
  0
SECTION
  2
CLASSES
  0
CLASS
  1
ACDBDICTIONARYWDFLT
  2
AcDbDictionaryWithDefault
  3
ObjectDBX Classes
 90
        0
280
     0
281
     0
  0
CLASS
  1
VISUALSTYLE
  2
AcDbVisualStyle
  3
ObjectDBX Classes
 90
     4095
280
     0
281
     0
  0
CLASS
  1
MATERIAL
  2
AcDbMaterial
  3
ObjectDBX Classes
 90
     1153
280
     0
281
     0
  0
CLASS
  1
SCALE
  2
AcDbScale
  3
ObjectDBX Classes
 90
     1153
280
     0
281
     0
  0
CLASS
  1
TABLESTYLE
  2
AcDbTableStyle
  3
ObjectDBX Classes
 90
     4095
280
     0
281
     0
  0
CLASS
  1
MLEADERSTYLE
  2
AcDbMLeaderStyle
  3
ACDB_MLEADERSTYLE_CLASS
 90
     4095
280
     0
281
     0
  0
CLASS
  1
SUN
  2
AcDbSun
  3
SCENEOE
 90
     1153
280
     0
281
     0
  0
CLASS
  1
ACDBPLACEHOLDER
  2
AcDbPlaceHolder
  3
ObjectDBX Classes
 90
        0
280
     0
281
     0
  0
CLASS
  1
LAYOUT
  2
AcDbLayout
  3
ObjectDBX Classes
 90
        0
280
     0
281
     0
  0
ENDSEC
  0
SECTION
  2
TABLES
  0
TABLE
  2
VPORT
  5
8
330
0
100
AcDbSymbolTable
 70
     1
  0
VPORT
  5
29
330
8
100
AcDbSymbolTableRecord
100
AcDbViewportTableRecord
  2
*Active
 70
     0
 10
0.0
 20
0.0
 11
1.0
 21
1.0
 12
139.7
 22
107.95
 13
0.0
 23
0.0
 14
10.0
 24
10.0
 15
10.0
 25
10.0
 16
0.0
 26
0.0
 36
1.0
 17
0.0
 27
0.0
 37
0.0
 40
215.9
 41
1.2941176471
 42
50.0
 43
0.0
 44
0.0
 50
0.0
 51
0.0
 71
     0
 72
  2000
 73
     1
 74
     3
 75
     0
 76
     0
 77
     0
 78
     0
281
     0
 65
     1
110
0.0
120
0.0
130
0.0
111
1.0
121
0.0
131
0.0
112
0.0
122
1.0
132
0.0
 79
     0
146
0.0
  0
ENDTAB
  0
TABLE
  2
LTYPE
  5
5
330
0
100
AcDbSymbolTable
 70
     6
  0
LTYPE
  5
14
330
5
100
AcDbSymbolTableRecord
100
AcDbLinetypeTableRecord
  2
ByBlock
 70
     0
  3

 72
    65
 73
     0
 40
0.0
  0
LTYPE
  5
15
330
5
100
AcDbSymbolTableRecord
100
AcDbLinetypeTableRecord
  2
ByLayer
 70
     0
  3

 72
    65
 73
     0
 40
0.0
  0
LTYPE
  5
16
330
5
100
AcDbSymbolTableRecord
100
AcDbLinetypeTableRecord
  2
Continuous
 70
     0
  3
Solid line
 72
    65
 73
     0
 40
0.0
  0
LTYPE
  5
6E
330
5
100
AcDbSymbolTableRecord
100
AcDbLinetypeTableRecord
  2
HIDDEN
 70
     0
  3
Hidden __ __ __ __ __ __ __ __ __ __ __ __ __ __
 72
    65
 73
     2
 40
1.905
 49
1.27
 74
     0
 49
-0.635
 74
     0
  0
LTYPE
  5
6F
330
5
100
AcDbSymbolTableRecord
100
AcDbLinetypeTableRecord
  2
PHANTOM
 70
     0
  3
Phantom ______  __  __  ______  __  __  ______
 72
    65
 73
     6
 40
12.7
 49
6.35
 74
     0
 49
-1.27
 74
     0
 49
1.27
 74
     0
 49
-1.27
 74
     0
 49
1.27
 74
     0
 49
-1.27
 74
     0
  0
LTYPE
  5
70
330
5
100
AcDbSymbolTableRecord
100
AcDbLinetypeTableRecord
  2
CENTER
 70
     0
  3
Center ____ _ ____ _ ____ _ ____ _ ____ _ ____
 72
    65
 73
     4
 40
10.16
 49
6.35
 74
     0
 49
-1.27
 74
     0
 49
1.27
 74
     0
 49
-1.27
 74
     0
  0
LTYPE
  5
71
330
5
100
AcDbSymbolTableRecord
100
AcDbLinetypeTableRecord
  2
CENTERX2
 70
     0
  3
Center (2x) ________  __  ________  __  _____
 72
    65
 73
     4
 40
20.32
 49
12.7
 74
     0
 49
-2.54
 74
     0
 49
2.54
 74
     0
 49
-2.54
 74
     0
  0
LTYPE
  5
72
330
5
100
AcDbSymbolTableRecord
100
AcDbLinetypeTableRecord
  2
DOT2
 70
     0
  3
Dot (.5x) ........................................
 72
    65
 73
     2
 40
0.635
 49
0.0
 74
     0
 49
-0.635
 74
     0
  0
ENDTAB
  0
TABLE
  2
LAYER
  5
2
330
0
100
AcDbSymbolTable
 70
    17
  0
LAYER
  5
10
330
2
100
AcDbSymbolTableRecord
100
AcDbLayerTableRecord
  2
0
 70
     0
 62
     7
  6
Continuous
370
    -3
390
F
  0
LAYER
  5
73
330
2
100
AcDbSymbolTableRecord
100
AcDbLayerTableRecord
  2
FORMAT
 70
     0
 62
     7
  6
Continuous
370
    -3
390
F
  0
LAYER
  5
74
330
2
100
AcDbSymbolTableRecord
100
AcDbLayerTableRecord
  2
YARDIMCI_GEOMETRI
 70
     0
 62
    -6
  6
Continuous
290
     0
370
    -3
390
F
  0
LAYER
  5
75
330
2
100
AcDbSymbolTableRecord
100
AcDbLayerTableRecord
  2
SAYFA_CERCEVESI
 70
     0
 62
     7
  6
Continuous
370
    25
390
F
  0
LAYER
  5
76
330
2
100
AcDbSymbolTableRecord
100
AcDbLayerTableRecord
  2
ANTET
 70
     0
 62
     7
  6
Continuous
370
    -3
390
F
  0
LAYER
  5
77
330
2
100
AcDbSymbolTableRecord
100
AcDbLayerTableRecord
  2
OLCU
 70
     0
 62
   150
  6
Continuous
370
    -3
390
F
  0
LAYER
  5
78
330
2
100
AcDbSymbolTableRecord
100
AcDbLayerTableRecord
  2
METIN
 70
     0
 62
    96
  6
Continuous
370
    -3
390
F
  0
LAYER
  5
79
330
2
100
AcDbSymbolTableRecord
100
AcDbLayerTableRecord
  2
BALON
 70
     0
 62
     5
  6
Continuous
370
    -3
390
F
  0
LAYER
  5
7A
330
2
100
AcDbSymbolTableRecord
100
AcDbLayerTableRecord
  2
VURGU
 70
     0
 62
     7
  6
Continuous
370
    -3
390
F
  0
LAYER
  5
7B
330
2
100
AcDbSymbolTableRecord
100
AcDbLayerTableRecord
  2
SILIK
 70
     0
 62
     7
  6
Continuous
370
    -3
390
F
  0
LAYER
  5
7C
330
2
100
AcDbSymbolTableRecord
100
AcDbLayerTableRecord
  2
MODEL
 70
     0
 62
     7
  6
Continuous
370
    -3
390
F
  0
LAYER
  5
7D
330
2
100
AcDbSymbolTableRecord
100
AcDbLayerTableRecord
  2
DETAYLANDıRMA
 70
     0
 62
   190
  6
Continuous
370
    -3
390
F
  0
LAYER
  5
7E
330
2
100
AcDbSymbolTableRecord
100
AcDbLayerTableRecord
  2
TOLERANS
 70
     0
 62
   230
  6
Continuous
370
    -3
390
F
  0
LAYER
  5
7F
330
2
100
AcDbSymbolTableRecord
100
AcDbLayerTableRecord
  2
MERKEZ_CIZGILERI
 70
     0
 62
    30
  6
Continuous
370
    -3
390
F
  0
LAYER
  5
80
330
2
100
AcDbSymbolTableRecord
100
AcDbLayerTableRecord
  2
KESIT-DETAY_CIZGILERI
 70
     0
 62
     7
  6
Continuous
370
    -3
390
F
  0
LAYER
  5
81
330
2
100
AcDbSymbolTableRecord
100
AcDbLayerTableRecord
  2
\U+041E\U+0421\U+0415\U+0412\U+042B\U+0415
 70
     0
 62
     7
  6
Continuous
370
    -3
390
F
  0
LAYER
  5
82
330
2
100
AcDbSymbolTableRecord
100
AcDbLayerTableRecord
  2
\U+0412\U+041E\U+0414\U+042F\U+041D\U+042B\U+0415_\U+0417\U+041D\U+0410\U+041A\U+0418
 70
     0
 62
    11
  6
Continuous
370
    -3
390
F
  0
ENDTAB
  0
TABLE
  2
STYLE
  5
3
330
0
100
AcDbSymbolTable
 70
     1
  0
STYLE
  5
11
330
3
100
AcDbSymbolTableRecord
100
AcDbTextStyleTableRecord
  2
Standard
 70
     0
 40
0.0
 41
1.0
 50
0.0
 71
     0
 42
3.5
  3
txt
  4

  0
ENDTAB
  0
TABLE
  2
VIEW
  5
6
330
0
100
AcDbSymbolTable
 70
     0
  0
ENDTAB
  0
TABLE
  2
UCS
  5
7
330
0
100
AcDbSymbolTable
 70
     0
  0
ENDTAB
  0
TABLE
  2
APPID
  5
9
330
0
100
AcDbSymbolTable
 70
     1
  0
APPID
  5
12
330
9
100
AcDbSymbolTableRecord
100
AcDbRegAppTableRecord
  2
ACAD
 70
     0
  0
ENDTAB
  0
TABLE
  2
DIMSTYLE
  5
A
330
0
100
AcDbSymbolTable
 70
     1
100
AcDbDimStyleTable
  0
DIMSTYLE
105
27
330
A
100
AcDbSymbolTableRecord
100
AcDbDimStyleTableRecord
  2
ISO-25
 70
     0
 41
2.5
 42
0.625
 43
3.75
 44
1.25
 73
     0
 74
     0
 77
     1
 78
     8
140
2.5
141
2.5
143
0.0393700787
147
0.625
171
     3
172
     1
178
     0
271
     2
272
     2
274
     3
278
    44
283
     0
284
     8
340
11
  0
ENDTAB
  0
TABLE
  2
BLOCK_RECORD
  5
1
330
0
100
AcDbSymbolTable
 70
     1
  0
BLOCK_RECORD
  5
1F
330
1
100
AcDbSymbolTableRecord
100
AcDbBlockTableRecord
  2
*Model_Space
340
22
  0
BLOCK_RECORD
  5
1B
330
1
100
AcDbSymbolTableRecord
100
AcDbBlockTableRecord
  2
*Paper_Space
340
1E
  0
BLOCK_RECORD
  5
23
330
1
100
AcDbSymbolTableRecord
100
AcDbBlockTableRecord
  2
*Paper_Space0
340
26
  0
ENDTAB
  0
ENDSEC
  0
SECTION
  2
BLOCKS
  0
BLOCK
  5
20
330
1F
100
AcDbEntity
  8
0
100
AcDbBlockBegin
  2
*Model_Space
 70
     0
 10
0.0
 20
0.0
 30
0.0
  3
*Model_Space
  1

  0
ENDBLK
  5
21
330
1F
100
AcDbEntity
  8
0
100
AcDbBlockEnd
  0
BLOCK
  5
1C
330
1B
100
AcDbEntity
 67
     1
  8
0
100
AcDbBlockBegin
  2
*Paper_Space
 70
     0
 10
0.0
 20
0.0
 30
0.0
  3
*Paper_Space
  1

  0
ENDBLK
  5
1D
330
1B
100
AcDbEntity
 67
     1
  8
0
100
AcDbBlockEnd
  0
BLOCK
  5
24
330
23
100
AcDbEntity
  8
0
100
AcDbBlockBegin
  2
*Paper_Space0
 70
     0
 10
0.0
 20
0.0
 30
0.0
  3
*Paper_Space0
  1

  0
ENDBLK
  5
25
330
23
100
AcDbEntity
  8
0
100
AcDbBlockEnd
  0
ENDSEC
  0
SECTION
  2
ENTITIES
  0
CIRCLE
  5
83
330
1F
100
AcDbEntity
  8
0
  6
Continuous
 62
     7
370
    25
100
AcDbCircle
 10
129.8704108028
 20
115.4975186219
 30
0.0
 40
280.0
  0
CIRCLE
  5
84
330
1F
100
AcDbEntity
  8
0
  6
Continuous
 62
     7
370
    25
100
AcDbCircle
 10
129.8704108028
 20
115.4975186219
 30
0.0
 40
246.8
  0
CIRCLE
  5
85
330
1F
100
AcDbEntity
  8
0
  6
Continuous
 62
     7
370
    25
100
AcDbCircle
 10
129.8704108028
 20
115.4975186219
 30
0.0
 40
309.0
  0
CIRCLE
  5
86
330
1F
100
AcDbEntity
  8
0
  6
Continuous
 62
     7
370
    25
100
AcDbCircle
 10
129.8704108028
 20
115.4975186219
 30
0.0
 40
345.0
  0
LINE
  5
87
330
1F
100
AcDbEntity
  8
0
  6
Continuous
 62
     7
370
    25
100
AcDbLine
 10
474.8704108028
 20
707.6616803156
 30
0.0
 11
474.8704108028
 21
757.6616803156
 31
0.0
  0
LINE
  5
88
330
1F
100
AcDbEntity
  8
0
  6
Continuous
 62
     7
370
    25
100
AcDbLine
 10
-215.1295891972
 20
757.6616803156
 30
0.0
 11
-215.1295891972
 21
707.6616803156
 31
0.0
  0
LINE
  5
89
330
1F
100
AcDbEntity
  8
0
  6
Continuous
 62
     7
370
    25
100
AcDbLine
 10
438.8704108028
 20
757.6616803156
 30
0.0
 11
409.8704108028
 21
801.6616803156
 31
0.0
  0
LINE
  5
8A
330
1F
100
AcDbEntity
  8
0
  6
Continuous
 62
     7
370
    25
100
AcDbLine
 10
-150.1295891972
 20
801.6616803156
 30
0.0
 11
-179.1295891972
 21
757.6616803156
 31
0.0
  0
LINE
  5
8B
330
1F
100
AcDbEntity
  8
0
  6
Continuous
 62
     7
370
    25
100
AcDbLine
 10
409.8704108028
 20
801.6616803156
 30
0.0
 11
409.8704108028
 21
837.6616803156
 31
0.0
  0
LINE
  5
8C
330
1F
100
AcDbEntity
  8
0
  6
Continuous
 62
     7
370
    25
100
AcDbLine
 10
-150.1295891972
 20
837.6616803156
 30
0.0
 11
-150.1295891972
 21
801.6616803156
 31
0.0
  0
LINE
  5
8D
330
1F
100
AcDbEntity
  8
0
  6
Continuous
 62
     7
370
    25
100
AcDbLine
 10
474.8704108028
 20
707.6616803156
 30
0.0
 11
-215.1295891972
 21
707.6616803156
 31
0.0
  0
LINE
  5
8E
330
1F
100
AcDbEntity
  8
0
  6
Continuous
 62
     7
370
    25
100
AcDbLine
 10
474.8704108028
 20
757.6616803156
 30
0.0
 11
-215.1295891972
 21
757.6616803156
 31
0.0
  0
LINE
  5
8F
330
1F
100
AcDbEntity
  8
0
  6
Continuous
 62
     7
370
    25
100
AcDbLine
 10
409.8704108028
 20
801.6616803156
 30
0.0
 11
-150.1295891972
 21
801.6616803156
 31
0.0
  0
LINE
  5
90
330
1F
100
AcDbEntity
  8
0
  6
Continuous
 62
     7
370
    25
100
AcDbLine
 10
409.8704108028
 20
837.6616803156
 30
0.0
 11
-150.1295891972
 21
837.6616803156
 31
0.0
  0
LINE
  5
91
330
1F
100
AcDbEntity
  8
0
  6
Continuous
 62
     7
370
    25
100
AcDbLine
 10
-487.4627636522
 20
460.4975186219
 30
0.0
 11
-537.4627636522
 21
460.4975186219
 31
0.0
  0
LINE
  5
92
330
1F
100
AcDbEntity
  8
0
  6
Continuous
 62
     7
370
    25
100
AcDbLine
 10
-537.4627636522
 20
-229.5024813781
 30
0.0
 11
-487.4627636522
 21
-229.5024813781
 31
0.0
  0
LINE
  5
93
330
1F
100
AcDbEntity
  8
0
  6
Continuous
 62
     7
370
    25
100
AcDbLine
 10
-537.4627636522
 20
424.4975186219
 30
0.0
 11
-581.4627636522
 21
395.4975186219
 31
0.0
  0
LINE
  5
94
330
1F
100
AcDbEntity
  8
0
  6
Continuous
 62
     7
370
    25
100
AcDbLine
 10
-581.4627636522
 20
-164.5024813781
 30
0.0
 11
-537.4627636522
 21
-193.5024813781
 31
0.0
  0
LINE
  5
95
330
1F
100
AcDbEntity
  8
0
  6
Continuous
 62
     7
370
    25
100
AcDbLine
 10
-581.4627636522
 20
395.4975186219
 30
0.0
 11
-617.4627636522
 21
395.4975186219
 31
0.0
  0
LINE
  5
96
330
1F
100
AcDbEntity
  8
0
  6
Continuous
 62
     7
370
    25
100
AcDbLine
 10
-617.4627636522
 20
-164.5024813781
 30
0.0
 11
-581.4627636522
 21
-164.5024813781
 31
0.0
  0
LINE
  5
97
330
1F
100
AcDbEntity
  8
0
  6
Continuous
 62
     7
370
    25
100
AcDbLine
 10
-487.4627636522
 20
460.4975186219
 30
0.0
 11
-487.4627636522
 21
-229.5024813781
 31
0.0
  0
LINE
  5
98
330
1F
100
AcDbEntity
  8
0
  6
Continuous
 62
     7
370
    25
100
AcDbLine
 10
-537.4627636522
 20
460.4975186219
 30
0.0
 11
-537.4627636522
 21
-229.5024813781
 31
0.0
  0
LINE
  5
99
330
1F
100
AcDbEntity
  8
0
  6
Continuous
 62
     7
370
    25
100
AcDbLine
 10
-581.4627636522
 20
395.4975186219
 30
0.0
 11
-581.4627636522
 21
-164.5024813781
 31
0.0
  0
LINE
  5
9A
330
1F
100
AcDbEntity
  8
0
  6
Continuous
 62
     7
370
    25
100
AcDbLine
 10
-617.4627636522
 20
395.4975186219
 30
0.0
 11
-617.4627636522
 21
-164.5024813781
 31
0.0
  0
LINE
  5
9B
330
1F
100
AcDbEntity
  8
0
  6
Continuous
 62
     7
370
    25
100
AcDbLine
 10
-215.1295891972
 20
-568.0846000004
 30
0.0
 11
-215.1295891972
 21
-618.0846000004
 31
0.0
  0
LINE
  5
9C
330
1F
100
AcDbEntity
  8
0
  6
Continuous
 62
     7
370
    25
100
AcDbLine
 10
474.8704108028
 20
-618.0846000004
 30
0.0
 11
474.8704108028
 21
-568.0846000004
 31
0.0
  0
LINE
  5
9D
330
1F
100
AcDbEntity
  8
0
  6
Continuous
 62
     7
370
    25
100
AcDbLine
 10
-179.1295891972
 20
-618.0846000004
 30
0.0
 11
-150.1295891972
 21
-662.0846000004
 31
0.0
  0
LINE
  5
9E
330
1F
100
AcDbEntity
  8
0
  6
Continuous
 62
     7
370
    25
100
AcDbLine
 10
409.8704108028
 20
-662.0846000004
 30
0.0
 11
438.8704108028
 21
-618.0846000004
 31
0.0
  0
LINE
  5
9F
330
1F
100
AcDbEntity
  8
0
  6
Continuous
 62
     7
370
    25
100
AcDbLine
 10
-150.1295891972
 20
-662.0846000004
 30
0.0
 11
-150.1295891972
 21
-698.0846000004
 31
0.0
  0
LINE
  5
A0
330
1F
100
AcDbEntity
  8
0
  6
Continuous
 62
     7
370
    25
100
AcDbLine
 10
409.8704108028
 20
-698.0846000004
 30
0.0
 11
409.8704108028
 21
-662.0846000004
 31
0.0
  0
LINE
  5
A1
330
1F
100
AcDbEntity
  8
0
  6
Continuous
 62
     7
370
    25
100
AcDbLine
 10
-215.1295891972
 20
-568.0846000004
 30
0.0
 11
474.8704108028
 21
-568.0846000004
 31
0.0
  0
LINE
  5
A2
330
1F
100
AcDbEntity
  8
0
  6
Continuous
 62
     7
370
    25
100
AcDbLine
 10
-215.1295891972
 20
-618.0846000004
 30
0.0
 11
474.8704108028
 21
-618.0846000004
 31
0.0
  0
LINE
  5
A3
330
1F
100
AcDbEntity
  8
0
  6
Continuous
 62
     7
370
    25
100
AcDbLine
 10
-150.1295891972
 20
-662.0846000004
 30
0.0
 11
409.8704108028
 21
-662.0846000004
 31
0.0
  0
LINE
  5
A4
330
1F
100
AcDbEntity
  8
0
  6
Continuous
 62
     7
370
    25
100
AcDbLine
 10
-150.1295891972
 20
-698.0846000004
 30
0.0
 11
409.8704108028
 21
-698.0846000004
 31
0.0
  0
LINE
  5
A5
330
1F
100
AcDbEntity
  8
0
  6
Continuous
 62
     7
370
    25
100
AcDbLine
 10
793.1716077905
 20
-229.5024813781
 30
0.0
 11
843.1716077905
 21
-229.5024813781
 31
0.0
  0
LINE
  5
A6
330
1F
100
AcDbEntity
  8
0
  6
Continuous
 62
     7
370
    25
100
AcDbLine
 10
843.1716077905
 20
460.4975186219
 30
0.0
 11
793.1716077905
 21
460.4975186219
 31
0.0
  0
LINE
  5
A7
330
1F
100
AcDbEntity
  8
0
  6
Continuous
 62
     7
370
    25
100
AcDbLine
 10
843.1716077905
 20
-193.5024813781
 30
0.0
 11
887.1716077905
 21
-164.5024813781
 31
0.0
  0
LINE
  5
A8
330
1F
100
AcDbEntity
  8
0
  6
Continuous
 62
     7
370
    25
100
AcDbLine
 10
887.1716077905
 20
395.4975186219
 30
0.0
 11
843.1716077905
 21
424.4975186219
 31
0.0
  0
LINE
  5
A9
330
1F
100
AcDbEntity
  8
0
  6
Continuous
 62
     7
370
    25
100
AcDbLine
 10
887.1716077905
 20
-164.5024813781
 30
0.0
 11
923.1716077905
 21
-164.5024813781
 31
0.0
  0
LINE
  5
AA
330
1F
100
AcDbEntity
  8
0
  6
Continuous
 62
     7
370
    25
100
AcDbLine
 10
923.1716077905
 20
395.4975186219
 30
0.0
 11
887.1716077905
 21
395.4975186219
 31
0.0
  0
LINE
  5
AB
330
1F
100
AcDbEntity
  8
0
  6
Continuous
 62
     7
370
    25
100
AcDbLine
 10
793.1716077905
 20
115.4975186219
 30
0.0
 11
793.1716077905
 21
460.4975186219
 31
0.0
  0
LINE
  5
AC
330
1F
100
AcDbEntity
  8
0
  6
Continuous
 62
     7
370
    25
100
AcDbLine
 10
793.1716077905
 20
-229.5024813781
 30
0.0
 11
793.1716077905
 21
115.4975186219
 31
0.0
  0
LINE
  5
AD
330
1F
100
AcDbEntity
  8
0
  6
Continuous
 62
     7
370
    25
100
AcDbLine
 10
843.1716077905
 20
115.4975186219
 30
0.0
 11
843.1716077905
 21
460.4975186219
 31
0.0
  0
LINE
  5
AE
330
1F
100
AcDbEntity
  8
0
  6
Continuous
 62
     7
370
    25
100
AcDbLine
 10
843.1716077905
 20
-229.5024813781
 30
0.0
 11
843.1716077905
 21
115.4975186219
 31
0.0
  0
LINE
  5
AF
330
1F
100
AcDbEntity
  8
0
  6
Continuous
 62
     7
370
    25
100
AcDbLine
 10
887.1716077905
 20
115.4975186219
 30
0.0
 11
887.1716077905
 21
395.4975186219
 31
0.0
  0
LINE
  5
B0
330
1F
100
AcDbEntity
  8
0
  6
Continuous
 62
     7
370
    25
100
AcDbLine
 10
887.1716077905
 20
-164.5024813781
 30
0.0
 11
887.1716077905
 21
115.4975186219
 31
0.0
  0
LINE
  5
B1
330
1F
100
AcDbEntity
  8
0
  6
Continuous
 62
     7
370
    25
100
AcDbLine
 10
923.1716077905
 20
115.4975186219
 30
0.0
 11
923.1716077905
 21
395.4975186219
 31
0.0
  0
LINE
  5
B2
330
1F
100
AcDbEntity
  8
0
  6
Continuous
 62
     7
370
    25
100
AcDbLine
 10
923.1716077905
 20
-164.5024813781
 30
0.0
 11
923.1716077905
 21
115.4975186219
 31
0.0
  0
LINE
  5
B3
330
1F
100
AcDbEntity
  8
0
  6
Continuous
 62
     7
370
    25
100
AcDbLine
 10
1053.256784743
 20
-362.5117255702
 30
0.0
 11
1017.9014456837
 21
-342.1015227746
 31
0.0
  0
LINE
  5
B4
330
1F
100
AcDbEntity
  8
0
  6
Continuous
 62
     7
370
    25
100
AcDbLine
 10
672.9294829242
 20
-939.6752378173
 30
0.0
 11
708.2848219836
 21
-960.0854406128
 31
0.0
  0
LINE
  5
B5
330
1F
100
AcDbEntity
  8
0
  6
Continuous
 62
     7
370
    25
100
AcDbLine
 10
954.2913885008
 20
-380.4337203692
 30
0.0
 11
928.8355443781
 21
-365.7383743564
 31
0.0
  0
LINE
  5
B6
330
1F
100
AcDbEntity
  8
0
  6
Continuous
 62
     7
370
    25
100
AcDbLine
 10
648.85829924
 20
-850.7257372896
 30
0.0
 11
674.3141433627
 21
-865.4210833024
 31
0.0
  0
LWPOLYLINE
  5
B7
330
1F
100
AcDbEntity
  8
0
  6
Continuous
 62
     7
370
    25
100
AcDbPolyline
 90
      101
 70
   128
 43
0.0
 10
1053.256784743
 20
-362.5117255702
 10
1053.9571523833
 20
-362.9193354527
 10
1059.3479398603
 20
-366.2856457082
 10
1064.5570853172
 20
-369.9520321492
 10
1069.5792902049
 20
-373.9147654637
 10
1074.4094461234
 20
-378.1698149068
 10
1079.042640018
 20
-382.7128524004
 10
1083.474159176
 20
-387.5392569359
 10
1087.699496021
 20
-392.6441192742
 10
1091.7143526977
 20
-398.022246939
 10
1095.5146454431
 20
-403.6681694991
 10
1099.0965087408
 20
-409.576144132
 10
1102.4562992527
 20
-415.7401614658
 10
1105.5905995249
 20
-422.1539516912
 10
1108.4962214637
 20
-428.8109909395
 10
1111.1702095787
 20
-435.704507918
 10
1113.6098439886
 20
-442.8274907976
 10
1115.8126431879
 20
-450.1726943452
 10
1117.7763665714
 20
-457.7326472929
 10
1119.4990167126
 20
-465.4996599378
 10
1120.9788413958
 20
-473.4658319637
 10
1122.2143353986
 20
-481.6230604766
 10
1123.2042420222
 20
-489.9630482471
 10
1123.9475543706
 20
-498.47731215
 10
1124.4435163741
 20
-507.1571917928
 10
1124.6916235585
 20
-515.9938583247
 10
1124.6916235585
 20
-524.9783234173
 10
1124.4435163741
 20
-534.1014484069
 10
1123.9475543706
 20
-543.3539535902
 10
1123.2042420222
 20
-552.726427663
 10
1122.2143353986
 20
-562.2093372935
 10
1120.9788413958
 20
-571.7930368186
 10
1119.4990167126
 20
-581.4677780559
 10
1117.7763665714
 20
-591.2237202182
 10
1115.8126431879
 20
-601.0509399244
 10
1113.6098439886
 20
-610.9394412919
 10
1111.1702095787
 20
-620.8791661051
 10
1108.4962214637
 20
-630.8600040456
 10
1105.5905995249
 20
-640.8718029765
 10
1102.4562992527
 20
-650.9043792682
 10
1099.0965087407
 20
-660.9475281574
 10
1095.5146454431
 20
-670.9910341265
 10
1091.7143526977
 20
-681.0246812951
 10
1087.699496021
 20
-691.0382638104
 10
1083.474159176
 20
-701.0215962287
 10
1079.042640018
 20
-710.9645238758
 10
1074.4094461234
 20
-720.8569331755
 10
1069.5792902049
 20
-730.6887619371
 10
1064.5570853172
 20
-740.4500095901
 10
1059.3479398603
 20
-750.1307473565
 10
1053.9571523833
 20
-759.7211283499
 10
1048.3902061946
 20
-769.2113975917
 10
1042.6527637848
 20
-778.5919019329
 10
1036.7506610669
 20
-787.8530998734
 10
1030.6899014402
 20
-796.9855712674
 10
1024.4766496839
 20
-805.9800269045
 10
1018.1172256866
 20
-814.8273179592
 10
1011.6180980179
 20
-823.518445296
 10
1004.9858773485
 20
-832.0445686236
 10
998.2273097267
 20
-840.3970154865
 10
991.349269716
 20
-848.5672900864
 10
984.3587534028
 20
-856.5470819239
 10
977.2628712804
 20
-864.3282742517
 10
970.0688410159
 20
-871.9029523304
 10
962.7839801095
 20
-879.2634114792
 10
955.4156984506
 20
-886.4021649128
 10
947.9714907812
 20
-893.3119513569
 10
940.4589290724
 20
-899.9857424337
 10
932.8856548225
 20
-906.4167498112
 10
925.2593712845
 20
-912.5984321079
 10
917.5878356301
 20
-918.5245015466
 10
909.87885106
 20
-924.1889303498
 10
902.1402588667
 20
-929.5859568714
 10
894.3799304582
 20
-934.7100914566
 10
886.6057593519
 20
-939.5561220265
 10
878.8256531454
 20
-944.1191193789
 10
871.0475254733
 20
-948.3944422028
 10
863.2792879578
 20
-952.3777417988
 10
855.5288421611
 20
-956.0649665027
 10
847.8040715484
 20
-959.4523658068
 10
840.1128334688
 20
-962.5364941744
 10
832.4629511638
 20
-965.3142145449
 10
824.8622058089
 20
-967.7827015245
 10
817.3183285997
 20
-969.93944426
 10
809.8389928874
 20
-971.7822489931
 10
802.431806374
 20
-973.3092412912
 10
795.1043033742
 20
-974.5188679545
 10
787.8639371513
 20
-975.409898596
 10
780.7180723366
 20
-975.9814268923
 10
773.673977438
 20
-976.232871506
 10
766.7388174466
 20
-976.1639766772
 10
759.9196465494
 20
-975.7748124831
 10
753.2234009532
 20
-975.0657747669
 10
746.6568918299
 20
-974.0375847355
 10
740.2267983884
 20
-972.6912882256
 10
733.9396610805
 20
-971.0282546398
 10
727.8018749485
 20
-969.0501755541
 10
721.8196831199
 20
-966.759062997
 10
715.9991704579
 20
-964.1572474028
 10
710.3462573713
 20
-961.2473752416
 10
708.2848219836
 20
-960.0854406128
  0
LWPOLYLINE
  5
B8
330
1F
100
AcDbEntity
  8
0
  6
Continuous
 62
     7
370
    25
100
AcDbPolyline
 90
      148
 70
   128
 43
0.0
 10
853.108176415
 20
-354.8809880303
 10
859.0245913989
 20
-351.7641082426
 10
866.7849198074
 20
-347.9283583639
 10
874.5235120007
 20
-344.3905965213
 10
882.2324965707
 20
-341.1544211947
 10
889.9040322251
 20
-338.2231241012
 10
897.5303157632
 20
-335.5996868471
 10
905.1035900131
 20
-333.2867778952
 10
912.6161517219
 20
-331.2867498504
 10
920.0603593913
 20
-329.601637067
 10
927.4286410502
 20
-328.2331535789
 10
934.7135019566
 20
-327.1826913566
 10
941.907532221
 20
-326.4513188912
 10
949.0034143435
 20
-326.0397801076
 10
955.9939306567
 20
-325.9484936077
 10
962.8719706674
 20
-326.1775522448
 10
969.6305382892
 20
-326.7267230289
 10
976.2627589585
 20
-327.595447364
 10
982.7618866273
 20
-328.7828416159
 10
989.1213106246
 20
-330.2876980114
 10
995.3345623809
 20
-332.1084858665
 10
1001.3953220076
 20
-334.2433531437
 10
1007.2974247255
 20
-336.6901283352
 10
1013.0348671353
 20
-339.4463226725
 10
1018.601813324
 20
-342.5091326571
 10
1023.992600801
 20
-345.8754429127
 10
1029.2017462578
 20
-349.5418293536
 10
1034.2239511455
 20
-353.5045626681
 10
1039.0541070641
 20
-357.7596121112
 10
1043.6873009586
 20
-362.3026496049
 10
1048.1188201167
 20
-367.1290541404
 10
1052.3441569617
 20
-372.2339164786
 10
1056.3590136384
 20
-377.6120441434
 10
1060.1593063837
 20
-383.2579667035
 10
1063.7411696814
 20
-389.1659413365
 10
1067.1009601933
 20
-395.3299586702
 10
1070.2352604656
 20
-401.7437488956
 10
1073.1408824044
 20
-408.4007881439
 10
1075.8148705194
 20
-415.2943051224
 10
1078.2545049292
 20
-422.417288002
 10
1080.4573041286
 20
-429.7624915496
 10
1082.4210275121
 20
-437.3224444973
 10
1084.1436776532
 20
-445.0894571423
 10
1085.6235023365
 20
-453.0556291681
 10
1086.8589963392
 20
-461.212857681
 10
1087.8489029629
 20
-469.5528454515
 10
1088.5922153113
 20
-478.0671093545
 10
1089.0881773148
 20
-486.7469889972
 10
1089.3362844992
 20
-495.5836555291
 10
1089.3362844992
 20
-504.5681206217
 10
1089.0881773148
 20
-513.6912456113
 10
1088.5922153113
 20
-522.9437507946
 10
1087.8489029629
 20
-532.3162248674
 10
1086.8589963392
 20
-541.7991344979
 10
1085.6235023365
 20
-551.3828340231
 10
1084.1436776532
 20
-561.0575752603
 10
1082.4210275121
 20
-570.8135174227
 10
1080.4573041286
 20
-580.6407371288
 10
1078.2545049292
 20
-590.5292384963
 10
1075.8148705194
 20
-600.4689633095
 10
1073.1408824044
 20
-610.4498012501
 10
1070.2352604656
 20
-620.4616001809
 10
1067.1009601933
 20
-630.4941764726
 10
1063.7411696814
 20
-640.5373253618
 10
1060.1593063837
 20
-650.580831331
 10
1056.3590136384
 20
-660.6144784995
 10
1052.3441569617
 20
-670.6280610148
 10
1048.1188201167
 20
-680.6113934332
 10
1043.6873009586
 20
-690.5543210803
 10
1039.0541070641
 20
-700.44673038
 10
1034.2239511455
 20
-710.2785591415
 10
1029.2017462578
 20
-720.0398067945
 10
1023.992600801
 20
-729.7205445609
 10
1018.601813324
 20
-739.3109255544
 10
1013.0348671353
 20
-748.8011947961
 10
1007.2974247255
 20
-758.1816991373
 10
1001.3953220076
 20
-767.4428970779
 10
995.3345623809
 20
-776.5753684718
 10
989.1213106246
 20
-785.569824109
 10
982.7618866273
 20
-794.4171151636
 10
976.2627589585
 20
-803.1082425005
 10
969.6305382892
 20
-811.634365828
 10
962.8719706674
 20
-819.9868126909
 10
955.9939306567
 20
-828.1570872908
 10
949.0034143435
 20
-836.1368791284
 10
941.907532221
 20
-843.9180714562
 10
934.7135019566
 20
-851.4927495348
 10
927.4286410502
 20
-858.8532086836
 10
920.0603593913
 20
-865.9919621173
 10
912.6161517218
 20
-872.9017485613
 10
905.1035900131
 20
-879.5755396381
 10
897.5303157632
 20
-886.0065470156
 10
889.9040322251
 20
-892.1882293124
 10
882.2324965707
 20
-898.114298751
 10
874.5235120007
 20
-903.7787275543
 10
866.7849198074
 20
-909.1757540758
 10
859.0245913989
 20
-914.2998886611
 10
851.2504202926
 20
-919.1459192309
 10
843.4703140861
 20
-923.7089165834
 10
835.692186414
 20
-927.9842394073
 10
827.9239488985
 20
-931.9675390032
 10
820.1735031018
 20
-935.6547637072
 10
812.448732489
 20
-939.0421630112
 10
804.7574944095
 20
-942.1262913788
 10
797.1076121044
 20
-944.9040117493
 10
789.5068667496
 20
-947.3724987289
 10
781.9629895404
 20
-949.5292414645
 10
774.4836538281
 20
-951.3720461975
 10
767.0764673147
 20
-952.8990384956
 10
759.7489643149
 20
-954.108665159
 10
752.508598092
 20
-954.9996958004
 10
745.3627332773
 20
-955.5712240967
 10
738.3186383786
 20
-955.8226687105
 10
731.3834783873
 20
-955.7537738817
 10
724.5643074901
 20
-955.3646096875
 10
717.8680618938
 20
-954.6555719713
 10
711.3015527706
 20
-953.62738194
 10
704.8714593291
 20
-952.28108543
 10
698.5843220212
 20
-950.6180518443
 10
692.4465358891
 20
-948.6399727586
 10
686.4643440606
 20
-946.3488602014
 10
680.6438313986
 20
-943.7470446072
 10
674.990918312
 20
-940.837172446
 10
669.5113547338
 20
-937.6222035316
 10
664.2107142723
 20
-934.1054080107
 10
659.0943885416
 20
-930.2903630369
 10
654.1675816781
 20
-926.180949132
 10
649.4353050463
 20
-921.7813462391
 10
644.902372142
 20
-917.0960294704
 10
640.573393696
 20
-912.1297645558
 10
636.4527729841
 20
-906.8876029955
 10
632.5447013484
 20
-901.3748769209
 10
628.8531539339
 20
-895.5971936722
 10
625.3818856454
 20
-889.5604300936
 10
622.1344273279
 20
-883.2707265566
 10
619.1140821751
 20
-876.7344807137
 10
616.3239223697
 20
-869.9583409908
 10
613.7667859587
 20
-862.9491998254
 10
611.4452739658
 20
-855.714186655
 10
609.3617477469
 20
-848.260660666
 10
607.5183265873
 20
-840.5962033076
 10
605.9168855463
 20
-832.7286105808
 10
604.5590535503
 20
-824.6658851082
 10
603.4462117355
 20
-816.4162279942
 10
602.579492043
 20
-807.9880304832
 10
601.9597760681
 20
-799.3898654242
 10
601.5876941627
 20
-790.6304785507
 10
601.586198428
 20
-790.5770416989
  0
LWPOLYLINE
  5
B9
330
1F
100
AcDbEntity
  8
0
  6
Continuous
 62
     7
370
    25
100
AcDbPolyline
 90
      121
 70
   128
 43
0.0
 10
919.0493471034
 20
-360.8286639375
 10
921.3002712273
 20
-360.4757315398
 10
928.1771339469
 20
-359.60038206
 10
934.9595641001
 20
-359.0459872888
 10
941.639822811
 20
-358.8131798009
 10
948.2102877833
 20
-358.9022252337
 10
954.6634619973
 20
-359.3130219848
 10
960.9919822641
 20
-360.0451013277
 10
967.1886276272
 20
-361.0976279466
 10
973.246327602
 20
-362.4694008894
 10
979.1581702428
 20
-364.1588549384
 10
984.91741003
 20
-366.1640623959
 10
990.5174755665
 20
-368.4827352838
 10
995.9519770759
 20
-371.1122279542
 10
1001.2147136934
 20
-374.0495401083
 10
1006.299680541
 20
-377.2913202197
 10
1011.2010755794
 20
-380.8338693585
 10
1015.9133062279
 20
-384.6731454117
 10
1020.4309957458
 20
-388.8047676959
 10
1024.7489893675
 20
-393.2240219549
 10
1028.8623601839
 20
-397.9258657396
 10
1032.7664147642
 20
-402.9049341609
 10
1036.4566985114
 20
-408.1555460114
 10
1039.9290007448
 20
-413.6717102477
 10
1043.1793595045
 20
-419.4471328264
 10
1046.2040660723
 20
-425.4752238855
 10
1048.999669203
 20
-431.7491052638
 10
1051.5629790627
 20
-438.2616183487
 10
1053.8910708686
 20
-445.0053322449
 10
1055.9812882254
 20
-451.9725522523
 10
1057.8312461574
 20
-459.1553286465
 10
1059.4388338289
 20
-466.5454657494
 10
1060.8022169534
 20
-474.1345312805
 10
1061.9198398858
 20
-481.9138659783
 10
1062.7904273981
 20
-489.8745934809
 10
1063.4129861343
 20
-498.0076304536
 10
1063.7868057434
 20
-506.3036969539
 10
1063.9114596906
 20
-514.7533270193
 10
1063.7868057434
 20
-523.3468794687
 10
1063.4129861343
 20
-532.0745489028
 10
1062.7904273981
 20
-540.9263768924
 10
1061.9198398858
 20
-549.8922633413
 10
1060.8022169534
 20
-558.9619780104
 10
1059.4388338289
 20
-568.1251721906
 10
1057.8312461574
 20
-577.3713905113
 10
1055.9812882254
 20
-586.6900828695
 10
1053.8910708686
 20
-596.0706164683
 10
1051.5629790627
 20
-605.5022879487
 10
1048.999669203
 20
-614.9743356023
 10
1046.2040660722
 20
-624.4759516511
 10
1043.1793595045
 20
-633.9962945786
 10
1039.9290007448
 20
-643.524501501
 10
1036.4566985114
 20
-653.0497005612
 10
1032.7664147642
 20
-662.5610233345
 10
1028.8623601839
 20
-672.0476172288
 10
1024.7489893675
 20
-681.4986578686
 10
1020.4309957458
 20
-690.903361445
 10
1015.9133062279
 20
-700.2509970206
 10
1011.2010755794
 20
-709.5308987736
 10
1006.299680541
 20
-718.7324781678
 10
1001.2147136934
 20
-727.8452360342
 10
995.9519770759
 20
-736.8587745508
 10
990.5174755665
 20
-745.7628091066
 10
984.91741003
 20
-754.5471800366
 10
979.1581702428
 20
-763.2018642143
 10
973.246327602
 20
-771.716986488
 10
967.1886276272
 20
-780.0828309487
 10
960.9919822641
 20
-788.2898520162
 10
954.6634619973
 20
-796.3286853305
 10
948.2102877833
 20
-804.1901584369
 10
941.639822811
 20
-811.8653012522
 10
934.9595641001
 20
-819.345356299
 10
928.1771339469
 20
-826.6217886988
 10
921.3002712273
 20
-833.6862959104
 10
914.3368225664
 20
-840.5308172028
 10
907.2947333855
 20
-847.147542853
 10
900.182038836
 20
-853.5289230571
 10
893.0068546315
 20
-859.6676765445
 10
885.7773677873
 20
-865.5567988862
 10
878.501827279
 20
-871.1895704865
 10
871.1885346304
 20
-876.5595642511
 10
863.845834441
 20
-881.6606529196
 10
856.4821048649
 20
-886.4870160573
 10
849.1057480512
 20
-891.0331466963
 10
841.7251805567
 20
-895.293857619
 10
834.348823743
 20
-899.2642872771
 10
826.985094167
 20
-902.9399053382
 10
819.6423939775
 20
-906.3165178554
 10
812.3291013289
 20
-909.3902720527
 10
805.0535608206
 20
-912.1576607208
 10
797.8240739764
 20
-914.6155262189
 10
790.6488897719
 20
-916.7610640779
 10
783.5361952224
 20
-918.5918262002
 10
776.4941060415
 20
-920.1057236531
 10
769.5306573806
 20
-921.301029052
 10
762.653794661
 20
-922.1763785319
 10
755.8713645078
 20
-922.7307733031
 10
749.1911057969
 20
-922.963580791
 10
742.6206408246
 20
-922.8745353582
 10
736.1674666106
 20
-922.4637386071
 10
729.8389463439
 20
-921.7316592642
 10
723.6423009807
 20
-920.6791326453
 10
717.5846010059
 20
-919.3073597025
 10
711.6727583651
 20
-917.6179056534
 10
705.9135185779
 20
-915.612698196
 10
700.3134530414
 20
-913.2940253081
 10
694.878951532
 20
-910.6645326377
 10
689.6162149146
 20
-907.7272204835
 10
684.5312480669
 20
-904.4854403721
 10
679.6298530285
 20
-900.9428912334
 10
674.91762238
 20
-897.1036151801
 10
670.3999328621
 20
-892.971992896
 10
666.0819392404
 20
-888.5527386369
 10
661.968568424
 20
-883.8508948522
 10
658.0645138437
 20
-878.871826431
 10
654.3742300965
 20
-873.6212145805
 10
650.9019278631
 20
-868.1050503442
 10
647.6515691034
 20
-862.3296277655
 10
644.6268625357
 20
-856.3015367064
 10
641.831259405
 20
-850.0276553281
 10
639.7127017664
 20
-844.7063552327
  0
LWPOLYLINE
  5
BA
330
1F
100
AcDbEntity
  8
0
  6
Continuous
 62
     7
370
    25
100
AcDbPolyline
 90
       90
 70
   128
 43
0.0
 10
954.2913885008
 20
-380.4337203692
 10
957.3741504517
 20
-382.2935133717
 10
962.1412720285
 20
-385.5046333113
 10
966.7221183517
 20
-389.0149039093
 10
971.1109175939
 20
-392.8199022547
 10
975.3021399058
 20
-396.9148340821
 10
979.2905043831
 20
-401.2945398126
 10
983.0709857205
 20
-405.9535010542
 10
986.6388205439
 20
-410.8858475557
 10
989.989513412
 20
-416.0853646026
 10
993.1188424804
 20
-421.5455008479
 10
996.0228648213
 20
-427.2593765667
 10
998.6979213912
 20
-433.2197923244
 10
1001.1406416418
 20
-439.419238048
 10
1003.3479477665
 20
-445.849902489
 10
1005.3170585784
 20
-452.5036830652
 10
1007.0454930148
 20
-459.3721960699
 10
1008.531073263
 20
-466.4467872355
 10
1009.7719275046
 20
-473.7185426376
 10
1010.7664922738
 20
-481.1782999265
 10
1011.5135144277
 20
-488.8166598719
 10
1012.0120527246
 20
-496.6239982055
 10
1012.2614790105
 20
-504.5904777478
 10
1012.2614790105
 20
-512.7060608027
 10
1012.0120527246
 20
-520.9605218048
 10
1011.5135144277
 20
-529.343460204
 10
1010.7664922738
 20
-537.8443135695
 10
1009.7719275046
 20
-546.4523708988
 10
1008.531073263
 20
-555.1567861132
 10
1007.0454930148
 20
-563.946591724
 10
1005.3170585784
 20
-572.8107126512
 10
1003.3479477665
 20
-581.7379801783
 10
1001.1406416418
 20
-590.7171460245
 10
998.6979213912
 20
-599.7368965176
 10
996.0228648213
 20
-608.7858668492
 10
993.1188424804
 20
-617.8526553939
 10
989.989513412
 20
-626.9258380758
 10
986.6388205439
 20
-635.9939827622
 10
983.0709857205
 20
-645.0456636683
 10
979.2905043831
 20
-654.0694757537
 10
975.3021399058
 20
-663.0540490921
 10
971.1109175939
 20
-671.9880631981
 10
966.7221183517
 20
-680.8602612903
 10
962.1412720285
 20
-689.6594644749
 10
957.3741504517
 20
-698.3745858311
 10
952.4267601537
 20
-706.9946443805
 10
947.3053348039
 20
-715.5087789231
 10
942.0163273545
 20
-723.9062617222
 10
936.5664019096
 20
-732.1765120211
 10
930.9624253288
 20
-740.3091093754
 10
925.2114585745
 20
-748.2938067817
 10
919.3207478158
 20
-756.1205435896
 10
913.2977152979
 20
-763.7794581778
 10
907.1499499901
 20
-771.2609003793
 10
900.8851980243
 20
-778.5554436408
 10
894.5113529343
 20
-785.6538969003
 10
888.0364457104
 20
-792.5473161673
 10
881.4686346805
 20
-799.2270157925
 10
874.8161952302
 20
-805.6845794115
 10
868.0875093764
 20
-811.9118705492
 10
861.2910552057
 20
-817.9010428723
 10
854.4353961922
 20
-823.6445500746
 10
847.5291704078
 20
-829.1351553863
 10
840.5810796378
 20
-834.3659406916
 10
833.5998784173
 20
-839.3303152458
 10
826.5943629999
 20
-844.0220239793
 10
819.5733602754
 20
-848.4351553792
 10
812.5457166471
 20
-852.5641489378
 10
805.5202868858
 20
-856.4038021584
 10
798.5059229731
 20
-859.9492771108
 10
791.5114629474
 20
-863.1961065269
 10
784.5457197686
 20
-866.1401994294
 10
777.6174702135
 20
-868.7778462864
 10
770.7354438174
 20
-871.1057236854
 10
763.9083118747
 20
-873.1208985208
 10
757.1446765132
 20
-874.8208316895
 10
750.4530598556
 20
-876.2033812903
 10
743.8418932818
 20
-877.2668053224
 10
737.3195068051
 20
-878.0097638808
 10
730.8941185767
 20
-878.431320844
 10
724.5738245309
 20
-878.5309450538
 10
718.366588184
 20
-878.3085109845
 10
712.2802306008
 20
-877.7642989012
 10
706.3224205398
 20
-876.8989945064
 10
700.5006647908
 20
-875.7136880764
 10
694.8222987163
 20
-874.209873087
 10
689.2944770088
 20
-872.3894443322
 10
683.9241646766
 20
-870.2546955369
 10
678.7181282673
 20
-867.8083164661
 10
674.3141433627
 20
-865.4210833024
  0
LWPOLYLINE
  5
BB
330
1F
100
AcDbEntity
  8
0
  6
Continuous
 62
     7
370
    25
100
AcDbPolyline
 90
      178
 70
   128
 43
0.0
 10
590.8570230768
 20
-722.5291914782
 10
590.9817558666
 20
-714.3428800128
 10
591.3557970737
 20
-706.0228698162
 10
591.9786754095
 20
-697.5796440301
 10
592.8496060525
 20
-689.0238410467
 10
593.9674916376
 20
-680.3662411048
 10
595.3309236385
 20
-671.6177527061
 10
596.9381841425
 20
-662.7893988713
 10
598.7872480151
 20
-653.8923032507
 10
600.8757854518
 20
-644.9376761088
 10
603.201164913
 20
-635.9368001991
 10
605.7604564408
 20
-626.9010165484
 10
608.5504353494
 20
-617.8417101668
 10
611.5675862895
 20
-608.7702957029
 10
614.8081076766
 20
-599.6982030613
 10
618.2679164815
 20
-590.6368630013
 10
621.9426533747
 20
-581.5976927338
 10
625.827688219
 20
-572.592081536
 10
629.9181259039
 20
-563.6313764011
 10
634.2088125128
 20
-554.726867741
 10
638.6943418172
 20
-545.8897751604
 10
643.3690620886
 20
-537.1312333203
 10
648.2270832194
 20
-528.4622779088
 10
653.2622841446
 20
-519.8938317353
 10
658.4683205539
 20
-511.436690969
 10
663.8386328861
 20
-503.1015115347
 10
669.3664545936
 20
-494.8987956874
 10
675.0448206681
 20
-486.8388787788
 10
680.8665764171
 20
-478.9319162355
 10
686.8243864781
 20
-471.1878707624
 10
692.9107440613
 20
-463.6164997909
 10
699.1179804081
 20
-456.2273431835
 10
705.438274454
 20
-449.0297112143
 10
711.8636626824
 20
-442.0326728382
 10
718.3860491591
 20
-435.2450442637
 10
724.9972157329
 20
-428.6753778446
 10
731.6888323905
 20
-422.3319513047
 10
738.452467752
 20
-416.2227573069
 10
745.2795996947
 20
-410.3554933837
 10
752.1616260908
 20
-404.7375522372
 10
759.0898756459
 20
-399.3760124254
 10
766.0556188246
 20
-394.2776294426
 10
773.0500788503
 20
-389.4488272077
 10
780.0644427631
 20
-384.8956899703
 10
787.0898725244
 20
-380.6239546443
 10
794.1175161527
 20
-376.6390035797
 10
801.1385188772
 20
-372.9458577809
 10
808.1440342945
 20
-369.5491705799
 10
815.1252355151
 20
-366.4532217735
 10
822.0733262851
 20
-363.6619122309
 10
828.9795520695
 20
-361.1787589781
 10
835.835211083
 20
-359.0068907671
 10
842.6316652537
 20
-357.1490441331
 10
849.3603511075
 20
-355.6075599471
 10
856.0127905578
 20
-354.384380466
 10
862.5806015877
 20
-353.4810468854
 10
869.0555088116
 20
-352.898697398
 10
875.4293539015
 20
-352.6380657591
 10
881.6941058674
 20
-352.6994803624
 10
887.8418711752
 20
-353.0828638259
 10
893.8649036931
 20
-353.7877330898
 10
899.7556144518
 20
-354.8132000249
 10
905.5065812061
 20
-356.1579725515
 10
911.1105577869
 20
-357.8203562679
 10
916.5604832317
 20
-359.7982565847
 10
921.8494906812
 20
-362.0891813644
 10
926.970916031
 20
-364.6902440614
 10
931.918306329
 20
-367.5981673589
 10
936.6854279058
 20
-370.8092872985
 10
941.266274229
 20
-374.3195578965
 10
945.6550734712
 20
-378.1245562419
 10
949.8462957831
 20
-382.2194880693
 10
953.8346602603
 20
-386.5991937998
 10
957.6151415978
 20
-391.2581550414
 10
961.1829764212
 20
-396.1905015429
 10
964.5336692893
 20
-401.3900185898
 10
967.6629983577
 20
-406.8501548351
 10
970.5670206986
 20
-412.5640305539
 10
973.2420772685
 20
-418.5244463115
 10
975.6847975191
 20
-424.7238920352
 10
977.8921036438
 20
-431.1545564762
 10
979.8612144557
 20
-437.8083370524
 10
981.5896488921
 20
-444.6768500571
 10
983.0752291403
 20
-451.7514412227
 10
984.3160833819
 20
-459.0231966248
 10
985.3106481511
 20
-466.4829539137
 10
986.057670305
 20
-474.1213138591
 10
986.5562086018
 20
-481.9286521927
 10
986.8056348878
 20
-489.895131735
 10
986.8056348878
 20
-498.0107147898
 10
986.5562086018
 20
-506.265175792
 10
986.057670305
 20
-514.6481141912
 10
985.3106481511
 20
-523.1489675567
 10
984.3160833818
 20
-531.757024886
 10
983.0752291403
 20
-540.4614401004
 10
981.5896488921
 20
-549.2512457112
 10
979.8612144557
 20
-558.1153666384
 10
977.8921036438
 20
-567.0426341655
 10
975.6847975191
 20
-576.0218000117
 10
973.2420772685
 20
-585.0415505048
 10
970.5670206986
 20
-594.0905208364
 10
967.6629983577
 20
-603.1573093811
 10
964.5336692893
 20
-612.230492063
 10
961.1829764212
 20
-621.2986367494
 10
957.6151415978
 20
-630.3503176555
 10
953.8346602603
 20
-639.3741297409
 10
949.8462957831
 20
-648.3587030793
 10
945.6550734712
 20
-657.2927171853
 10
941.266274229
 20
-666.1649152775
 10
936.6854279058
 20
-674.9641184621
 10
931.918306329
 20
-683.6792398183
 10
926.970916031
 20
-692.2992983677
 10
921.8494906812
 20
-700.8134329103
 10
916.5604832317
 20
-709.2109157094
 10
911.1105577869
 20
-717.4811660083
 10
905.5065812061
 20
-725.6137633625
 10
899.7556144518
 20
-733.5984607689
 10
893.8649036931
 20
-741.4251975768
 10
887.8418711751
 20
-749.084112165
 10
881.6941058674
 20
-756.5655543664
 10
875.4293539015
 20
-763.860097628
 10
869.0555088115
 20
-770.9585508875
 10
862.5806015877
 20
-777.8519701545
 10
856.0127905578
 20
-784.5316697797
 10
849.3603511075
 20
-790.9892333986
 10
842.6316652537
 20
-797.2165245364
 10
835.835211083
 20
-803.2056968595
 10
828.9795520695
 20
-808.9492040618
 10
822.0733262851
 20
-814.4398093735
 10
815.1252355151
 20
-819.6705946788
 10
808.1440342945
 20
-824.634969233
 10
801.1385188772
 20
-829.3266779664
 10
794.1175161527
 20
-833.7398093664
 10
787.0898725244
 20
-837.8688029249
 10
780.0644427631
 20
-841.7084561456
 10
773.0500788503
 20
-845.253931098
 10
766.0556188246
 20
-848.5007605141
 10
759.0898756459
 20
-851.4448534166
 10
752.1616260908
 20
-854.0825002736
 10
745.2795996947
 20
-856.4103776726
 10
738.452467752
 20
-858.4255525079
 10
731.6888323904
 20
-860.1254856767
 10
724.9972157329
 20
-861.5080352775
 10
718.3860491591
 20
-862.5714593096
 10
711.8636626824
 20
-863.314417868
 10
705.438274454
 20
-863.7359748312
 10
699.1179804081
 20
-863.835599041
 10
692.9107440613
 20
-863.6131649717
 10
686.8243864781
 20
-863.0689528884
 10
680.8665764171
 20
-862.2036484936
 10
675.0448206681
 20
-861.0183420636
 10
669.3664545936
 20
-859.5145270741
 10
663.8386328861
 20
-857.6940983194
 10
658.4683205539
 20
-855.5593495241
 10
653.2622841446
 20
-853.1129704533
 10
648.2270832194
 20
-850.3580435238
 10
643.3690620886
 20
-847.29803992
 10
638.6943418172
 20
-843.9368152202
 10
634.2088125128
 20
-840.2786045388
 10
629.9181259039
 20
-836.3280171901
 10
625.827688219
 20
-832.0900308803
 10
621.9426533747
 20
-827.5699854359
 10
618.2679164815
 20
-822.7735760755
 10
614.8081076766
 20
-817.7068462339
 10
611.5675862895
 20
-812.3761799474
 10
608.5504353494
 20
-806.7882938099
 10
605.7604564408
 20
-800.9502285102
 10
603.201164913
 20
-794.8693399607
 10
600.8757854518
 20
-788.5532900289
 10
598.7872480151
 20
-782.0100368838
 10
596.9381841425
 20
-775.2478249683
 10
595.3309236385
 20
-768.2751746117
 10
593.9674916376
 20
-761.1008712937
 10
592.8496060525
 20
-753.7339545753
 10
591.9786754095
 20
-746.1837067085
 10
591.3557970737
 20
-738.4596409411
 10
590.9817558666
 20
-730.5714895299
 10
590.8570230768
 20
-722.5291914782
  0
LWPOLYLINE
  5
BC
330
1F
100
AcDbEntity
  8
0
  6
Continuous
 62
     7
370
    25
100
AcDbPolyline
 90
      167
 70
   128
 43
0.0
 10
614.3329682122
 20
-708.976816822
 10
614.4579629909
 20
-701.278758494
 10
614.8327682734
 20
-693.4474116608
 10
615.4568471545
 20
-685.4939946511
 10
616.3293056474
 20
-677.4299006584
 10
617.4488939636
 20
-669.2666814194
 10
618.8140083037
 20
-661.0160306673
 10
620.4226931545
 20
-652.6897673796
 10
622.2726440905
 20
-644.2998188483
 10
624.3612110748
 20
-635.858203594
 10
626.6854022553
 20
-627.3770141491
 10
629.2418882504
 20
-618.8683997358
 10
632.0270069188
 20
-610.3445488623
 10
635.0367686046
 20
-601.8176718628
 10
638.2668618533
 20
-593.2999834066
 10
641.7126595873
 20
-584.8036850003
 10
645.3692257348
 20
-576.3409475096
 10
649.2313222997
 20
-567.9238937243
 10
653.2934168661
 20
-559.5645809929
 10
657.5496905226
 20
-551.2749839504
 10
661.9940461982
 20
-543.0669773647
 10
666.6201173961
 20
-534.9523191262
 10
671.421277314
 20
-526.9426334047
 10
676.3906483365
 20
-519.0493939977
 10
681.5211118876
 20
-511.2839078947
 10
686.8053186274
 20
-503.6572990798
 10
692.235698981
 20
-496.1804925966
 10
697.8044739806
 20
-488.8641988983
 10
703.5036664097
 20
-481.7188985053
 10
709.3251122301
 20
-474.7548269914
 10
715.2604722767
 20
-467.9819603221
 10
721.3012442034
 20
-461.4100005636
 10
727.4387746627
 20
-455.048361985
 10
733.6642717012
 20
-448.9061575723
 10
739.9688173545
 20
-442.9921859741
 10
746.3433804215
 20
-437.3149188977
 10
752.7788294022
 20
-431.8824889736
 10
759.2659455778
 20
-426.7026781053
 10
765.795436217
 20
-421.7829063219
 10
772.3579478871
 20
-417.1302211492
 10
778.9440798536
 20
-412.7512875139
 10
785.5443975458
 20
-408.6523781962
 10
792.1494460722
 20
-404.8393648441
 10
798.7497637644
 20
-401.3177095627
 10
805.3358957309
 20
-398.0924570892
 10
811.8984074011
 20
-395.1682275667
 10
818.4278980402
 20
-392.5492099257
 10
824.9150142159
 20
-390.2391558839
 10
831.3504631965
 20
-388.2413745715
 10
837.7250262636
 20
-386.5587277908
 10
844.0295719168
 20
-385.1936259172
 10
850.2550689554
 20
-384.148024446
 10
856.3925994146
 20
-383.4234211912
 10
862.4333713414
 20
-383.0208541401
 10
868.368731388
 20
-382.9408999659
 10
874.1901772084
 20
-383.1836732024
 10
879.8893696375
 20
-383.7488260792
 10
885.4581446371
 20
-384.6355490202
 10
890.8885249906
 20
-385.8425718033
 10
896.1727317305
 20
-387.3681653801
 10
901.3031952815
 20
-389.2101443525
 10
906.272566304
 20
-391.3658701033
 10
911.0737262219
 20
-393.8322545761
 10
915.6997974199
 20
-396.605764699
 10
920.1441530954
 20
-399.6824274454
 10
924.4004267519
 20
-403.0578355256
 10
928.4625213183
 20
-406.7271536999
 10
932.3246178833
 20
-410.6851257055
 10
935.9811840307
 20
-414.9260817856
 10
939.4269817648
 20
-419.4439468115
 10
942.6570750135
 20
-424.232248985
 10
945.6668366993
 20
-429.2841291094
 10
948.4519553676
 20
-434.592350415
 10
951.0084413628
 20
-440.149308926
 10
953.3326325433
 20
-445.9470443529
 10
955.4211995275
 20
-451.9772514955
 10
957.2711504635
 20
-458.2312921401
 10
958.8798353144
 20
-464.7002074338
 10
960.2449496545
 20
-471.3747307177
 10
961.3645379707
 20
-478.2453008015
 10
962.2369964636
 20
-485.3020756598
 10
962.8610753447
 20
-492.5349465305
 10
963.2358806271
 20
-499.9335523958
 10
963.3608754059
 20
-507.4872948241
 10
963.2358806271
 20
-515.1853531521
 10
962.8610753447
 20
-523.0166999853
 10
962.2369964636
 20
-530.9701169949
 10
961.3645379707
 20
-539.0342109877
 10
960.2449496545
 20
-547.1974302266
 10
958.8798353144
 20
-555.4480809788
 10
957.2711504635
 20
-563.7743442665
 10
955.4211995275
 20
-572.1642927977
 10
953.3326325433
 20
-580.6059080521
 10
951.0084413628
 20
-589.087097497
 10
948.4519553676
 20
-597.5957119103
 10
945.6668366993
 20
-606.1195627838
 10
942.6570750135
 20
-614.6464397832
 10
939.4269817648
 20
-623.1641282394
 10
935.9811840307
 20
-631.6604266457
 10
932.3246178833
 20
-640.1231641365
 10
928.4625213183
 20
-648.5402179218
 10
924.4004267519
 20
-656.8995306532
 10
920.1441530954
 20
-665.1891276957
 10
915.6997974199
 20
-673.3971342813
 10
911.0737262219
 20
-681.5117925198
 10
906.272566304
 20
-689.5214782414
 10
901.3031952815
 20
-697.4147176483
 10
896.1727317305
 20
-705.1802037513
 10
890.8885249906
 20
-712.8068125663
 10
885.4581446371
 20
-720.2836190495
 10
879.8893696375
 20
-727.5999127478
 10
874.1901772084
 20
-734.7452131408
 10
868.368731388
 20
-741.7092846547
 10
862.4333713414
 20
-748.482151324
 10
856.3925994146
 20
-755.0541110824
 10
850.2550689554
 20
-761.415749661
 10
844.0295719168
 20
-767.5579540738
 10
837.7250262636
 20
-773.471925672
 10
831.3504631965
 20
-779.1491927484
 10
824.9150142158
 20
-784.5816226725
 10
818.4278980402
 20
-789.7614335408
 10
811.8984074011
 20
-794.6812053241
 10
805.3358957309
 20
-799.3338904968
 10
798.7497637644
 20
-803.7128241322
 10
792.1494460722
 20
-807.8117334499
 10
785.5443975458
 20
-811.6247468019
 10
778.9440798536
 20
-815.1464020833
 10
772.3579478871
 20
-818.3716545569
 10
765.7954362169
 20
-821.2958840794
 10
759.2659455778
 20
-823.9149017203
 10
752.7788294022
 20
-826.2249557621
 10
746.3433804215
 20
-828.2227370746
 10
739.9688173545
 20
-829.9053838553
 10
733.6642717012
 20
-831.2704857289
 10
727.4387746627
 20
-832.3160872
 10
721.3012442034
 20
-833.0406904548
 10
715.2604722767
 20
-833.443257506
 10
709.3251122301
 20
-833.5232116801
 10
703.5036664097
 20
-833.2804384437
 10
697.8044739806
 20
-832.7152855669
 10
692.235698981
 20
-831.8285626259
 10
686.8053186274
 20
-830.6215398427
 10
681.5211118876
 20
-829.0959462659
 10
676.3906483365
 20
-827.2539672935
 10
671.421277314
 20
-825.0982415428
 10
666.6201173961
 20
-822.6318570699
 10
661.9940461982
 20
-819.858346947
 10
657.5496905226
 20
-816.7816842007
 10
653.2934168661
 20
-813.4062761205
 10
649.2313222997
 20
-809.7369579462
 10
645.3692257348
 20
-805.7789859405
 10
641.7126595873
 20
-801.5380298604
 10
638.2668618533
 20
-797.0201648346
 10
635.0367686046
 20
-792.2318626611
 10
632.0270069188
 20
-787.1799825367
 10
629.2418882504
 20
-781.8717612311
 10
626.6854022553
 20
-776.31480272
 10
624.3612110748
 20
-770.5170672932
 10
622.2726440905
 20
-764.4868601506
 10
620.4226931545
 20
-758.232819506
 10
618.8140083037
 20
-751.7639042123
 10
617.4488939636
 20
-745.0893809283
 10
616.3293056474
 20
-738.2188108445
 10
615.4568471545
 20
-731.1620359862
 10
614.8327682734
 20
-723.9291651155
 10
614.4579629909
 20
-716.5305592502
 10
614.3329682122
 20
-708.976816822
  0
LWPOLYLINE
  5
BD
330
1F
100
AcDbEntity
  8
0
  6
Continuous
 62
     7
370
    25
100
AcDbPolyline
 90
       57
 70
   128
 43
0.0
 10
675.7098368192
 20
-744.4089288751
 10
675.8348315979
 20
-736.7108705471
 10
676.2096368804
 20
-728.8795237139
 10
676.8337157615
 20
-720.9261067042
 10
677.7061742544
 20
-712.8620127115
 10
678.8257625706
 20
-704.6987934725
 10
680.1908769107
 20
-696.4481427204
 10
681.7995617615
 20
-688.1218794327
 10
683.6495126975
 20
-679.7319309014
 10
685.7380796818
 20
-671.2903156471
 10
688.0622708623
 20
-662.8091262022
 10
690.6187568574
 20
-654.3005117889
 10
693.4038755258
 20
-645.7766609154
 10
696.4136372116
 20
-637.2497839159
 10
699.6437304603
 20
-628.7320954597
 10
703.0895281943
 20
-620.2357970534
 10
706.7460943418
 20
-611.7730595627
 10
710.6081909067
 20
-603.3560057774
 10
714.6702854731
 20
-594.996693046
 10
718.9265591296
 20
-586.7070960035
 10
723.3709148052
 20
-578.4990894178
 10
727.9969860031
 20
-570.3844311793
 10
732.798145921
 20
-562.3747454578
 10
737.7675169435
 20
-554.4815060508
 10
742.8979804945
 20
-546.7160199478
 10
748.1821872344
 20
-539.0894111329
 10
753.612567588
 20
-531.6126046497
 10
759.1813425875
 20
-524.2963109514
 10
764.8805350167
 20
-517.1510105584
 10
770.7019808371
 20
-510.1869390445
 10
776.6373408837
 20
-503.4140723752
 10
782.6781128104
 20
-496.8421126168
 10
788.8156432697
 20
-490.4804740382
 10
795.0411403082
 20
-484.3382696254
 10
801.3456859615
 20
-478.4242980272
 10
807.7202490285
 20
-472.7470309508
 10
814.1556980092
 20
-467.3146010267
 10
820.6428141848
 20
-462.1347901584
 10
827.1723048239
 20
-457.215018375
 10
833.7348164941
 20
-452.5623332023
 10
840.3209484606
 20
-448.183399567
 10
846.9212661528
 20
-444.0844902493
 10
853.5263146792
 20
-440.2714768972
 10
860.1266323714
 20
-436.7498216158
 10
866.7127643379
 20
-433.5245691423
 10
873.2752760081
 20
-430.6003396198
 10
879.8047666472
 20
-427.9813219788
 10
886.2918828228
 20
-425.6712679371
 10
892.7273318035
 20
-423.6734866246
 10
899.1018948706
 20
-421.9908398439
 10
905.4064405238
 20
-420.6257379703
 10
911.6319375624
 20
-419.5801364991
 10
917.7694680216
 20
-418.8555332444
 10
923.8102399484
 20
-418.4529661932
 10
929.745599995
 20
-418.373012019
 10
935.5670458154
 20
-418.6157852555
 10
939.0494187787
 20
-418.9212513013
  0
LWPOLYLINE
  5
BE
330
1F
100
AcDbEntity
  8
0
  6
Continuous
 62
     7
370
    25
100
AcDbPolyline
 90
       16
 70
   128
 43
0.0
 10
700.0212934464
 20
-832.9749723979
 10
699.6437304603
 20
-832.4522768877
 10
696.4136372116
 20
-827.6639747142
 10
693.4038755258
 20
-822.6120945898
 10
690.6187568574
 20
-817.3038732842
 10
688.0622708623
 20
-811.7469147731
 10
685.7380796818
 20
-805.9491793463
 10
683.6495126975
 20
-799.9189722037
 10
681.7995617615
 20
-793.6649315591
 10
680.1908769107
 20
-787.1960162654
 10
678.8257625706
 20
-780.5214929815
 10
677.7061742544
 20
-773.6509228976
 10
676.8337157615
 20
-766.5941480393
 10
676.2096368804
 20
-759.3612771686
 10
675.8348315979
 20
-751.9626713033
 10
675.7098368192
 20
-744.4089288751
  0
LWPOLYLINE
  5
BF
330
1F
100
AcDbEntity
  8
0
  6
Continuous
 62
     7
370
    25
100
AcDbPolyline
 90
       42
 70
   128
 43
0.0
 10
676.3262215023
 20
-760.975618812
 10
676.8331822498
 20
-754.2772564764
 10
677.7054760494
 20
-745.5699514138
 10
678.8251736705
 20
-736.7599746699
 10
680.190910934
 20
-727.8580598443
 10
681.8010238995
 20
-718.875052549
 10
683.6535508924
 20
-709.8218971946
 10
685.7462348937
 20
-700.7096236565
 10
688.0765262906
 20
-691.5493338362
 10
690.6415859817
 20
-682.3521881359
 10
693.4382888371
 20
-673.1293918609
 10
696.4632275051
 20
-663.8921815678
 10
699.7127165638
 20
-654.6518113745
 10
703.1827970115
 20
-645.4195392487
 10
706.8692410896
 20
-636.2066132918
 10
710.7675574338
 20
-627.0242580351
 10
714.8729965462
 20
-617.8836607638
 10
719.1805565815
 20
-608.7959578878
 10
723.6849894416
 20
-599.7722213732
 10
728.3808071686
 20
-590.823445253
 10
733.2622886322
 20
-581.9605322324
 10
738.323486499
 20
-573.1942804056
 10
743.5582344791
 20
-564.5353701003
 10
748.9601548384
 20
-555.9943508647
 10
754.522666169
 20
-547.5816286153
 10
760.2389914078
 20
-539.3074529581
 10
766.102166093
 20
-531.1819047017
 10
772.1050468493
 20
-523.2148835749
 10
778.2403200912
 20
-515.4160961659
 10
784.5005109334
 20
-507.7950440957
 10
790.8779922977
 20
-500.3610124424
 10
797.3649942053
 20
-493.1230584284
 10
803.9536132436
 20
-486.0900003857
 10
810.6358221954
 20
-479.2704070122
 10
817.4034798182
 20
-472.672586932
 10
824.2483407638
 20
-466.3045785725
 10
831.1620656234
 20
-460.174140371
 10
838.1362310884
 20
-454.2887413221
 10
845.1623402123
 20
-448.655551878
 10
852.2318327635
 20
-443.2814352123
 10
859.3360956543
 20
-438.1729388583
 10
864.8500664068
 20
-434.4073566479
  0
ENDSEC
  0
SECTION
  2
OBJECTS
  0
DICTIONARY
  5
C
330
0
100
AcDbDictionary
281
     1
  3
ACAD_GROUP
350
D
  3
ACAD_LAYOUT
350
1A
  3
ACAD_MLINESTYLE
350
17
  3
ACAD_PLOTSETTINGS
350
19
  3
ACAD_PLOTSTYLENAME
350
E
  3
ACAD_SCALELIST
350
47
  0
DICTIONARY
  5
D
102
{ACAD_REACTORS
330
C
102
}
330
C
100
AcDbDictionary
281
     1
  0
DICTIONARY
  5
1A
102
{ACAD_REACTORS
330
C
102
}
330
C
100
AcDbDictionary
281
     1
  3
Layout1
350
1E
  3
Layout2
350
26
  3
Model
350
22
  0
DICTIONARY
  5
17
102
{ACAD_REACTORS
330
C
102
}
330
C
100
AcDbDictionary
281
     1
  3
Standard
350
18
  0
DICTIONARY
  5
19
102
{ACAD_REACTORS
330
C
102
}
330
C
100
AcDbDictionary
281
     1
  0
ACDBDICTIONARYWDFLT
  5
E
102
{ACAD_REACTORS
330
C
102
}
330
C
100
AcDbDictionary
281
     1
  3
Normal
350
F
100
AcDbDictionaryWithDefault
340
F
  0
DICTIONARY
  5
47
102
{ACAD_REACTORS
330
C
102
}
330
C
100
AcDbDictionary
281
     1
  3
A0
350
48
  3
A1
350
49
  3
A2
350
4A
  3
A3
350
4B
  3
A4
350
4C
  3
A5
350
4D
  3
A6
350
4E
  3
A7
350
4F
  3
A8
350
50
  3
A9
350
51
  3
B0
350
52
  3
B1
350
53
  3
B2
350
54
  3
B3
350
55
  3
B4
350
56
  3
B5
350
57
  3
B6
350
58
  3
B7
350
59
  3
B8
350
5A
  3
B9
350
5B
  3
C0
350
5C
  3
C1
350
5D
  3
C2
350
5E
  3
C3
350
5F
  3
C4
350
60
  3
C5
350
61
  3
C6
350
62
  3
C7
350
63
  3
C8
350
64
  3
C9
350
65
  3
D0
350
66
  3
D1
350
67
  3
D2
350
68
  0
LAYOUT
  5
1E
102
{ACAD_REACTORS
330
1A
102
}
330
1A
100
AcDbPlotSettings
  1

  2
none_device
  4

  6

 40
0.0
 41
0.0
 42
0.0
 43
0.0
 44
0.0
 45
0.0
 46
0.0
 47
0.0
 48
0.0
 49
0.0
140
0.0
141
0.0
142
1.0
143
1.0
 70
   688
 72
     1
 73
     0
 74
     5
  7

 75
    16
147
1.0
148
0.0
149
0.0
100
AcDbLayout
  1
Layout1
 70
     1
 71
     1
 10
0.0
 20
0.0
 11
420.0
 21
297.0
 12
0.0
 22
0.0
 32
0.0
 14
1.0000000000E+20
 24
1.0000000000E+20
 34
1.0000000000E+20
 15
-1.0000000000E+20
 25
-1.0000000000E+20
 35
-1.0000000000E+20
146
0.0
 13
0.0
 23
0.0
 33
0.0
 16
1.0
 26
0.0
 36
0.0
 17
0.0
 27
1.0
 37
0.0
 76
     0
330
1B
  0
LAYOUT
  5
26
102
{ACAD_REACTORS
330
1A
102
}
330
1A
100
AcDbPlotSettings
  1

  2
none_device
  4

  6

 40
0.0
 41
0.0
 42
0.0
 43
0.0
 44
0.0
 45
0.0
 46
0.0
 47
0.0
 48
0.0
 49
0.0
140
0.0
141
0.0
142
1.0
143
1.0
 70
   688
 72
     1
 73
     0
 74
     5
  7

 75
    16
147
1.0
148
0.0
149
0.0
100
AcDbLayout
  1
Layout2
 70
     1
 71
     2
 10
0.0
 20
0.0
 11
0.0
 21
0.0
 12
0.0
 22
0.0
 32
0.0
 14
0.0
 24
0.0
 34
0.0
 15
0.0
 25
0.0
 35
0.0
146
0.0
 13
0.0
 23
0.0
 33
0.0
 16
1.0
 26
0.0
 36
0.0
 17
0.0
 27
1.0
 37
0.0
 76
     0
330
23
  0
LAYOUT
  5
22
102
{ACAD_REACTORS
330
1A
102
}
330
1A
100
AcDbPlotSettings
  1

  2
none_device
  4
Letter_(8.50_x_11.00_Inches)
  6

 40
6.35
 41
6.35
 42
6.35000508
 43
6.35000508
 44
215.9
 45
279.4
 46
0.0
 47
0.0
 48
0.0
 49
0.0
140
0.0
141
0.0
142
1.0
143
1.0
 70
  1712
 72
     1
 73
     0
 74
     0
  7

 75
     0
147
1.0
148
0.0
149
0.0
100
AcDbLayout
  1
Model
 70
     1
 71
     0
 10
0.0
 20
0.0
 11
279.4
 21
215.9
 12
0.0
 22
0.0
 32
0.0
 14
0.0
 24
0.0
 34
0.0
 15
279.4
 25
215.9
 35
0.0
146
0.0
 13
0.0
 23
0.0
 33
0.0
 16
1.0
 26
0.0
 36
0.0
 17
0.0
 27
1.0
 37
0.0
 76
     0
330
1F
331
29
  0
MLINESTYLE
  5
18
102
{ACAD_REACTORS
330
17
102
}
330
17
100
AcDbMlineStyle
  2
Standard
 70
     0
  3

 62
   256
 51
90.0
 52
90.0
 71
     2
 49
0.5
 62
   256
  6
BYLAYER
 49
-0.5
 62
   256
  6
BYLAYER
  0
ACDBPLACEHOLDER
  5
F
102
{ACAD_REACTORS
330
E
102
}
330
E
  0
SCALE
  5
48
102
{ACAD_REACTORS
330
47
102
}
330
47
100
AcDbScale
 70
     0
300
1:1
140
1.0
141
1.0
290
     1
  0
SCALE
  5
49
102
{ACAD_REACTORS
330
47
102
}
330
47
100
AcDbScale
 70
     0
300
1:2
140
1.0
141
2.0
290
     0
  0
SCALE
  5
4A
102
{ACAD_REACTORS
330
47
102
}
330
47
100
AcDbScale
 70
     0
300
1:4
140
1.0
141
4.0
290
     0
  0
SCALE
  5
4B
102
{ACAD_REACTORS
330
47
102
}
330
47
100
AcDbScale
 70
     0
300
1:5
140
1.0
141
5.0
290
     0
  0
SCALE
  5
4C
102
{ACAD_REACTORS
330
47
102
}
330
47
100
AcDbScale
 70
     0
300
1:8
140
1.0
141
8.0
290
     0
  0
SCALE
  5
4D
102
{ACAD_REACTORS
330
47
102
}
330
47
100
AcDbScale
 70
     0
300
1:10
140
1.0
141
10.0
290
     0
  0
SCALE
  5
4E
102
{ACAD_REACTORS
330
47
102
}
330
47
100
AcDbScale
 70
     0
300
1:16
140
1.0
141
16.0
290
     0
  0
SCALE
  5
4F
102
{ACAD_REACTORS
330
47
102
}
330
47
100
AcDbScale
 70
     0
300
1:20
140
1.0
141
20.0
290
     0
  0
SCALE
  5
50
102
{ACAD_REACTORS
330
47
102
}
330
47
100
AcDbScale
 70
     0
300
1:30
140
1.0
141
30.0
290
     0
  0
SCALE
  5
51
102
{ACAD_REACTORS
330
47
102
}
330
47
100
AcDbScale
 70
     0
300
1:40
140
1.0
141
40.0
290
     0
  0
SCALE
  5
52
102
{ACAD_REACTORS
330
47
102
}
330
47
100
AcDbScale
 70
     0
300
1:50
140
1.0
141
50.0
290
     0
  0
SCALE
  5
53
102
{ACAD_REACTORS
330
47
102
}
330
47
100
AcDbScale
 70
     0
300
1:100
140
1.0
141
100.0
290
     0
  0
SCALE
  5
54
102
{ACAD_REACTORS
330
47
102
}
330
47
100
AcDbScale
 70
     0
300
2:1
140
2.0
141
1.0
290
     0
  0
SCALE
  5
55
102
{ACAD_REACTORS
330
47
102
}
330
47
100
AcDbScale
 70
     0
300
4:1
140
4.0
141
1.0
290
     0
  0
SCALE
  5
56
102
{ACAD_REACTORS
330
47
102
}
330
47
100
AcDbScale
 70
     0
300
8:1
140
8.0
141
1.0
290
     0
  0
SCALE
  5
57
102
{ACAD_REACTORS
330
47
102
}
330
47
100
AcDbScale
 70
     0
300
10:1
140
10.0
141
1.0
290
     0
  0
SCALE
  5
58
102
{ACAD_REACTORS
330
47
102
}
330
47
100
AcDbScale
 70
     0
300
100:1
140
100.0
141
1.0
290
     0
  0
SCALE
  5
59
102
{ACAD_REACTORS
330
47
102
}
330
47
100
AcDbScale
 70
     0
300
1/128" = 1'-0"
140
0.0078125
141
12.0
290
     0
  0
SCALE
  5
5A
102
{ACAD_REACTORS
330
47
102
}
330
47
100
AcDbScale
 70
     0
300
1/64" = 1'-0"
140
0.015625
141
12.0
290
     0
  0
SCALE
  5
5B
102
{ACAD_REACTORS
330
47
102
}
330
47
100
AcDbScale
 70
     0
300
1/32" = 1'-0"
140
0.03125
141
12.0
290
     0
  0
SCALE
  5
5C
102
{ACAD_REACTORS
330
47
102
}
330
47
100
AcDbScale
 70
     0
300
1/16" = 1'-0"
140
0.0625
141
12.0
290
     0
  0
SCALE
  5
5D
102
{ACAD_REACTORS
330
47
102
}
330
47
100
AcDbScale
 70
     0
300
3/32" = 1'-0"
140
0.09375
141
12.0
290
     0
  0
SCALE
  5
5E
102
{ACAD_REACTORS
330
47
102
}
330
47
100
AcDbScale
 70
     0
300
1/8" = 1'-0"
140
0.125
141
12.0
290
     0
  0
SCALE
  5
5F
102
{ACAD_REACTORS
330
47
102
}
330
47
100
AcDbScale
 70
     0
300
3/16" = 1'-0"
140
0.1875
141
12.0
290
     0
  0
SCALE
  5
60
102
{ACAD_REACTORS
330
47
102
}
330
47
100
AcDbScale
 70
     0
300
1/4" = 1'-0"
140
0.25
141
12.0
290
     0
  0
SCALE
  5
61
102
{ACAD_REACTORS
330
47
102
}
330
47
100
AcDbScale
 70
     0
300
3/8" = 1'-0"
140
0.375
141
12.0
290
     0
  0
SCALE
  5
62
102
{ACAD_REACTORS
330
47
102
}
330
47
100
AcDbScale
 70
     0
300
1/2" = 1'-0"
140
0.5
141
12.0
290
     0
  0
SCALE
  5
63
102
{ACAD_REACTORS
330
47
102
}
330
47
100
AcDbScale
 70
     0
300
3/4" = 1'-0"
140
0.75
141
12.0
290
     0
  0
SCALE
  5
64
102
{ACAD_REACTORS
330
47
102
}
330
47
100
AcDbScale
 70
     0
300
1" = 1'-0"
140
1.0
141
12.0
290
     0
  0
SCALE
  5
65
102
{ACAD_REACTORS
330
47
102
}
330
47
100
AcDbScale
 70
     0
300
1-1/2" = 1'-0"
140
1.5
141
12.0
290
     0
  0
SCALE
  5
66
102
{ACAD_REACTORS
330
47
102
}
330
47
100
AcDbScale
 70
     0
300
3" = 1'-0"
140
3.0
141
12.0
290
     0
  0
SCALE
  5
67
102
{ACAD_REACTORS
330
47
102
}
330
47
100
AcDbScale
 70
     0
300
6" = 1'-0"
140
6.0
141
12.0
290
     0
  0
SCALE
  5
68
102
{ACAD_REACTORS
330
47
102
}
330
47
100
AcDbScale
 70
     0
300
1'-0" = 1'-0"
140
12.0
141
12.0
290
     0
  0
ENDSEC
  0
EOF
